Сонглайн.ру


Би-2

Мы не ангелы парень




Аккорды


Вступление: 
Em Dsus2 Cadd9 Dsus2

---0--------0------0--------|----------------0---------------|
------0--------0------0-----|------------3------3-----3----|
----------0-------0----------|--------2-------------2-----2-|
------------------------------|----0----------------------------|
-------------------------------|---------------------------------|
---0--------------------------|---------------------------------|

----------------0------------------|---------------0------------------|
------------3--------3-----3--------|-----------3------3-----3----|
--------0---------------0-----0----|-------2-------------2-----2--|
-----------------------------------|---0-------------------------------|
3------------------------------|---------------------------------------|
-----------------------------------|------------------------------------|

Em      D
Ты открывал ночь —
C       D 
Все что могли позволить.
Маски срывал прочь,
Душу держал в неволе.

Пусть на щеке кровь
Ты свалишь на помаду,
К черту барьер слов,
Ангелу слов не надо.


           Em
   А мы не ангелы, парень,
   Нет — мы не ангелы,
   D 
   Темные твари, и сорваны планки нам,
   Am               
   Если нас спросят чего мы хотели бы,
    C             D
   Мы бы взлетели, мы бы взлетели.
   Мы не ангелы, парень,
   Нет — мы не ангелы,
   Там на пожаре утратили ранги мы
   Нету к таким ни любви ни доверия
   Люди глядят на наличие перьев
   Мы не ангелы, парень...


Сотни чужих крыш
Что ыт искал там парень
Ты так давно спишь
Слишком давно для твари

Может пора вниз
Там где ты дышишь телом
Брось свой пустой лист
твари не ходят в белом


    Припев

Просмотров : 665


Аппликатуры аккордов :



Видеоурок :

Би-2 - Еще песни

Последний герой Мой рок-н-ролл
ВарвараПолковнику никто не пишет
А мы не ангелы, пареньБелый лист
ВеселоВечная любовь
Вечная призрачная встречнаяВойна